Here Today... Gone To Hell! | Message Board


Guns N Roses
of all the message boards on the internet, this is one...

Welcome, Guest. Please login or register.
October 20, 2021, 09:23:35 PM

Login with username, password and session length
Search:     Advanced search
1219048 Posts in 42872 Topics by 8847 Members
Latest Member: Derick
* Home Help Calendar Go to HTGTH Login Register
+  Here Today... Gone To Hell!
|-+  Wake up, it's time to play!
| |-+  Nice Boys Don't Play Rock And Roll
| | |-+  The Blues solo tab by Voodoochild (with mp3)
0 Members and 1 Guest are viewing this topic. « previous next »
Pages: [1] Go Down Print
Author Topic: The Blues solo tab by Voodoochild (with mp3)  (Read 8110 times)
Voodoochild
Natural Born Miller
Legend
*****

Karma: 0
Offline Offline

Gender: Male
Posts: 6305


Mostly impressive


WWW
« on: June 29, 2005, 12:45:38 AM »

Here's my new version of The Blues (mixed with Pittsburgh without Axl):

http://downloads.thenewguns.com/voodoo/voodoochild-theblueswithaxlcover.mp3

Thanks to rainX and cb from www.thenewguns.com again for hosting the file! You guys rock! Cheesy

Here's the tab for Robin's solo... I know it needs some fix here and there, but I think it's pretty much like that. (Copy the tab to the notepad and it will be in the right way):

The Blues solo (by Voodoochild):

Starts with the neck humbucker:

E:--10/12\10--10--10/8--8h7p8-8h7p8-7----------------------------------------------------------|
B:-------------------------------------10-8-10-10b-10b-10b--10br10--8--8h10p8p6----------------|
G:---------------------------------------------------------------------------------------------|
D:---------------------------------------------------------------------------------------------|
A:---------------------------------------------------------------------------------------------|
E:---------------------------------------------------------------------------------------------|

E:----------------------------------------------10-12--12b--12br12--10-------------------------|
B:--3\6--5/6\8--8/10--6h8p6---8\10--10/12----12------------------------------------------------|
G:--------------------------7-------------12---------------------------------------------------|
D:---------------------------------------------------------------------------------------------|
A:---------------------------------------------------------------------------------------------|
E:---------------------------------------------------------------------------------------------|

E:--8\10--8p7h8--7-----------------------------------------------------------------------------|
B:-----------------8---(Cool\10/12--10br(10)\8--10-----------------------------------------------|
G:-------------------7----------------------------9--------------------------------------------|
D:---------------------------------------------------------------------------------------------|
A:---------------------------------------------------------------------------------------------|
E:---------------------------------------------------------------------------------------------|

With wha-wha:

E:-11~-10h11p10----------13~-11h13p11p10h11p10----------13\15~-13-15-17-18-17-17-15----18-22-24br24br24-|
B:-------------13-11-------------------------13p11----------------------------------18------------------|
G:-------------------12----------------------------12---------------------------------------------------|
D:------------------------------------------------------------------------------------------------------|
A:------------------------------------------------------------------------------------------------------|
E:------------------------------------------------------------------------------------------------------|

Switch to the bridge humbucker

E:-20-18-20\22-22br(22)-18-18-22-18-17-15-17-17br(17)--10br(10)--8-6---6-6h8-8~----8----8~-8~--|
B:-------------------------------------------------------------------7---------7b--7b---7--7---|
G:---------------------------------------------------------------------------------------------|
D:---------------------------------------------------------------------------------------------|
A:---------------------------------------------------------------------------------------------|
E:---------------------------------------------------------------------------------------------|


E:--13-12-10-----------------------------7---19------------------------------------------------|
B:-----------13-12-10----10h12---13p12----8-----20---------------------------------------------|
G:--------------------12-----------------------------------------------------------------------|
D:---------------------------------------------------------------------------------------------|
A:---------------------------------------------------------------------------------------------|
E:---------------------------------------------------------------------------------------------|

Right after Finck, Fortus fills:

E:---------------------------------------------------------------------------------------------|
B:-----------------------------------------------------7h8-------------------------------------|
G:-----------------------------------------------------7---------------------------------------|
D:---------------------------------------------------------------------------------------------|
A:---------------------------------------------------------------------------------------------|
E:---------------------------------------------------------------------------------------------|



b = bend
br = bend release
\ = slide
h = hammer-on
p = pull-off
~ = vibrato
« Last Edit: June 29, 2005, 12:57:25 AM by Voodoochild » Logged

DOASHK
p00p yea
Banned
Rocker
***

Karma: 0
Offline Offline

Posts: 254

I'm a llama!


« Reply #1 on: June 30, 2005, 11:58:17 PM »

thanks d o double g
Logged
Voodoochild
Natural Born Miller
Legend
*****

Karma: 0
Offline Offline

Gender: Male
Posts: 6305


Mostly impressive


WWW
« Reply #2 on: July 04, 2005, 04:13:42 AM »

what? Didn't understand what u said.
Logged

Hoosier
Rocker
***

Karma: -1
Offline Offline

Posts: 151


I'm a llama!


« Reply #3 on: July 05, 2005, 02:30:12 AM »

he ment "dogg". word?
Logged

ever been in an earthquake motherfucker?!?!
jaknudsen
Rocker
***

Karma: 0
Offline Offline

Gender: Male
Posts: 313


I'm a mule!


WWW
« Reply #4 on: December 08, 2005, 07:49:34 PM »

Great work!

A tip: if you format tabs with the code tag, it will be easier to read:

Code:
The Blues solo (by Voodoochild):

Starts with the neck humbucker:

E:--10/12\10--10--10/8--8h7p8-8h7p8-7----------------------------------------------------------|
B:-------------------------------------10-8-10-10b-10b-10b--10br10--8--8h10p8p6----------------|
G:---------------------------------------------------------------------------------------------|
D:---------------------------------------------------------------------------------------------|
A:---------------------------------------------------------------------------------------------|
E:---------------------------------------------------------------------------------------------|

E:----------------------------------------------10-12--12b--12br12--10-------------------------|
B:--3\6--5/6\8--8/10--6h8p6---8\10--10/12----12------------------------------------------------|
G:--------------------------7-------------12---------------------------------------------------|
D:---------------------------------------------------------------------------------------------|
A:---------------------------------------------------------------------------------------------|
E:---------------------------------------------------------------------------------------------|

E:--8\10--8p7h8--7-----------------------------------------------------------------------------|
B:-----------------8---(Cool\10/12--10br(10)\8--10-----------------------------------------------|
G:-------------------7----------------------------9--------------------------------------------|
D:---------------------------------------------------------------------------------------------|
A:---------------------------------------------------------------------------------------------|
E:---------------------------------------------------------------------------------------------|

With wha-wha:

E:-11~-10h11p10----------13~-11h13p11p10h11p10----------13\15~-13-15-17-18-17-17-15----18-22-24br24br24-|
B:-------------13-11-------------------------13p11----------------------------------18------------------|
G:-------------------12----------------------------12---------------------------------------------------|
D:------------------------------------------------------------------------------------------------------|
A:------------------------------------------------------------------------------------------------------|
E:------------------------------------------------------------------------------------------------------|

Switch to the bridge humbucker

E:-20-18-20\22-22br(22)-18-18-22-18-17-15-17-17br(17)--10br(10)--8-6---6-6h8-8~----8----8~-8~--|
B:-------------------------------------------------------------------7---------7b--7b---7--7---|
G:---------------------------------------------------------------------------------------------|
D:---------------------------------------------------------------------------------------------|
A:---------------------------------------------------------------------------------------------|
E:---------------------------------------------------------------------------------------------|


E:--13-12-10-----------------------------7---19------------------------------------------------|
B:-----------13-12-10----10h12---13p12----8-----20---------------------------------------------|
G:--------------------12-----------------------------------------------------------------------|
D:---------------------------------------------------------------------------------------------|
A:---------------------------------------------------------------------------------------------|
E:---------------------------------------------------------------------------------------------|

Right after Finck, Fortus fills:

E:---------------------------------------------------------------------------------------------|
B:-----------------------------------------------------7h8-------------------------------------|
G:-----------------------------------------------------7---------------------------------------|
D:---------------------------------------------------------------------------------------------|
A:---------------------------------------------------------------------------------------------|
E:---------------------------------------------------------------------------------------------|



b = bend
br = bend release
\ = slide
h = hammer-on
p = pull-off
~ = vibrato
Logged

looooooooove's sooooo straaange
Voodoochild
Natural Born Miller
Legend
*****

Karma: 0
Offline Offline

Gender: Male
Posts: 6305


Mostly impressive


WWW
« Reply #5 on: December 08, 2005, 11:51:49 PM »

Thanks dude!
Did you managed to play the solo? Was the tab useful?
Logged

Sakib
Legend
*****

Karma: 0
Offline Offline

Gender: Male
Posts: 1935


Batman is sexy


« Reply #6 on: December 11, 2005, 07:09:30 AM »

Thanks dude!
Did you managed to play the solo? Was the tab useful?

yes. very might i add. this is one solo by gn'r i can almost play, this'll be the 1st ever gn'r guitar solo i can play
Logged

Excuse me standing on one leg, I'm half-caste. Explain yuself wha u mean when u say half-caste, u mean when picasso, mix red and green is a half caste canvas?
Voodoochild
Natural Born Miller
Legend
*****

Karma: 0
Offline Offline

Gender: Male
Posts: 6305


Mostly impressive


WWW
« Reply #7 on: December 11, 2005, 04:35:58 PM »

You should try the KOHD solos, they are easy as hell to play. Wink
Logged

layne
Opening Act
*

Karma: 0
Offline Offline

Posts: 27

Here Today...


« Reply #8 on: December 26, 2005, 09:22:23 AM »

hi Voodoochild,
could you post the entire song tab/chords ?

thank you!
Logged
Nick722
Headliner
**

Karma: 0
Offline Offline

Gender: Male
Posts: 69



WWW
« Reply #9 on: March 12, 2006, 05:09:51 PM »

Whoa, lots of letters
Thanks man!
Logged
MR W,AXL ROSE
Welsh, and luvin' it
Legend
*****

Karma: -3
Offline Offline

Gender: Male
Posts: 2395

live,breathe eat GNR.


« Reply #10 on: March 12, 2006, 07:51:10 PM »

hay voodoo could you post the tab for some of the solos in KOHD please dude.
Logged

╔═╦╦╦═╦═╗ ╔═╗ ╔═╦═╦═╦═╦═╗
║║║║║║║╚╣ ║║║ ║═║║║╚╣═╣╚╣
╠╗║║║║╠╗║ ║║║ ║╚╣║╠╗║═╬╗║
╚═╩═╩╩╩═╝ ╚╩╝ ╚╩╩═╩═╩═╩═╝
Voodoochild
Natural Born Miller
Legend
*****

Karma: 0
Offline Offline

Gender: Male
Posts: 6305


Mostly impressive


WWW
« Reply #11 on: March 13, 2006, 07:36:15 AM »

hay voodoo could you post the tab for some of the solos in KOHD please dude.
Isn't this already tabbed?
Logged

MR W,AXL ROSE
Welsh, and luvin' it
Legend
*****

Karma: -3
Offline Offline

Gender: Male
Posts: 2395

live,breathe eat GNR.


« Reply #12 on: March 13, 2006, 12:29:56 PM »

hay voodoo could you post the tab for some of the solos in KOHD please dude.
Isn't this already tabbed?

is it on this site somewhere
Logged

╔═╦╦╦═╦═╗ ╔═╗ ╔═╦═╦═╦═╦═╗
║║║║║║║╚╣ ║║║ ║═║║║╚╣═╣╚╣
╠╗║║║║╠╗║ ║║║ ║╚╣║╠╗║═╬╗║
╚═╩═╩╩╩═╝ ╚╩╝ ╚╩╩═╩═╩═╩═╝
Voodoochild
Natural Born Miller
Legend
*****

Karma: 0
Offline Offline

Gender: Male
Posts: 6305


Mostly impressive


WWW
« Reply #13 on: March 19, 2006, 08:02:11 PM »

hay voodoo could you post the tab for some of the solos in KOHD please dude.
Isn't this already tabbed?

is it on this site somewhere
I dunno man, use the search.
Logged

layne
Opening Act
*

Karma: 0
Offline Offline

Posts: 27

Here Today...


« Reply #14 on: April 27, 2006, 06:44:37 AM »

have a look at The Blues guitar pro tab on www.mysongbook.com.   (I'm not the author)
Is it correct?
Logged
Voodoochild
Natural Born Miller
Legend
*****

Karma: 0
Offline Offline

Gender: Male
Posts: 6305


Mostly impressive


WWW
« Reply #15 on: April 28, 2006, 11:28:52 PM »

have a look at The Blues guitar pro tab on www.mysongbook.com.   (I'm not the author)
Is it correct?
I dunno, I can't open the file because my guitar pro is old. Sad
Logged

Pages: [1] Go Up Print 
« previous next »
Jump to:  

Powered by MySQL Powered by PHP Powered by SMF 1.1.9 | SMF © 2006-2009, Simple Machines LLC Valid XHTML 1.0! Valid CSS!
Page created in 0.054 seconds with 18 queries.